Mudcat Café message #1164483 The Mudcat Café TM
Thread #7683   Message #1164483
Posted By: X
18-Apr-04 - 01:03 PM
Thread Name: Yogi Bear Song
Subject: RE: Yogi Bear Song
Banjo tab for the "Yogi Bear Song."                              


Yogi Bear Song                                 

Hanna, Barbera, Curtin
5-String Banjo



    G                         A7                   D7                     
D||-----2--------0--2--4-----|----7----------------|--4--3--4--3--4-----2--4--|
B||--3-----0--1--------------|------------5--------|-----------------3--------|
G||--------------------------|---------------------|--------------------------|
D||--------------------------|---------------------|--------------------------|
G||-----------------------0--|---------0-----------|--------------------------|


G                                                A7                  
---------2--0--------|--0--2--------0--2--4-----|----7----------------|
---------------------|--------0--1--------------|------------5--------|
---------------------|--------------------------|---------------------|
---------------------|--------------------------|---------------------|
----0----------------|-----------------------0--|---------0-----------|


G                         D7          G            F#m       G         
--9--8--9--8--9-----------|--9--8--7---------------|--7----7--7----9-------|
-----------------------8--|-----------8------8--9--|--------------------8--|
-----------------7--9-----|------------------------|-----------------------|
--------------------------|------------------------|-----------------------|
--------------------------|------------------------|-----------------------|


C                      A                                     D7      
--7----7--7------7--8--|--9--7-----------4--5--7--|--9-----9--7----------|
-----------------------|--------8--7--5-----------|-----8----------------|
-----------------------|--------------------------|----------------------|
-----------------------|--------------------------|----------------------|
-----------------------|--------------------------|----------------------|


G                                     E7#5       G                        
--9--8--9--8--9-----------|--9----9--10----------|--9--8--9--8--9-----------|
-----------------------8--|----------------------|--------------------7--8--|
-----------------7--9-----|----------------------|-----------------9--------|
--------------------------|----------------------|--------------------------|
--------------------------|----------------------|--------------------------|


A7          G         
--9--8--7-------------||
-----------8----------||
----------------------||
----------------------||
----------------------||